  0
SECTION
  2
HEADER
  9
$ACADVER
  1
AC1015
  9
$ACADMAINTVER
 70
     6
  9
$DWGCODEPAGE
  3
ANSI_1254
  9
$INSBASE
 10
0.0
 20
0.0
 30
0.0
  9
$EXTMIN
 10
0.0
 20
0.0
 30
0.0
  9
$EXTMAX
 10
279.4
 20
215.9
 30
0.0
  9
$LIMMIN
 10
0.0
 20
0.0
  9
$LIMMAX
 10
279.4
 20
215.9
  9
$ORTHOMODE
 70
     0
  9
$REGENMODE
 70
     1
  9
$FILLMODE
 70
     1
  9
$QTEXTMODE
 70
     0
  9
$MIRRTEXT
 70
     1
  9
$LTSCALE
 40
1.0
  9
$ATTMODE
 70
     1
  9
$TEXTSIZE
 40
3.5
  9
$TRACEWID
 40
1.0
  9
$TEXTSTYLE
  7
Standard
  9
$CLAYER
  8
0
  9
$CELTYPE
  6
ByLayer
  9
$CECOLOR
 62
   256
  9
$CELTSCALE
 40
1.0
  9
$DISPSILH
 70
     0
  9
$DIMSCALE
 40
1.0
  9
$DIMASZ
 40
3.5
  9
$DIMEXO
 40
1.0
  9
$DIMDLI
 40
3.75
  9
$DIMRND
 40
0.0
  9
$DIMDLE
 40
0.0
  9
$DIMEXE
 40
1.0
  9
$DIMTP
 40
0.0
  9
$DIMTM
 40
0.0
  9
$DIMTXT
 40
3.5
  9
$DIMCEN
 40
2.5
  9
$DIMTSZ
 40
0.0
  9
$DIMTOL
 70
     0
  9
$DIMLIM
 70
     0
  9
$DIMTIH
 70
     1
  9
$DIMTOH
 70
     1
  9
$DIMSE1
 70
     0
  9
$DIMSE2
 70
     0
  9
$DIMTAD
 70
     1
  9
$DIMZIN
 70
     0
  9
$DIMBLK
  1

  9
$DIMASO
 70
     1
  9
$DIMSHO
 70
     1
  9
$DIMPOST
  1

  9
$DIMAPOST
  1

  9
$DIMALT
 70
     0
  9
$DIMALTD
 70
     3
  9
$DIMALTF
 40
0.0393700787
  9
$DIMLFAC
 40
1.0
  9
$DIMTOFL
 70
     1
  9
$DIMTVP
 40
0.0
  9
$DIMTIX
 70
     0
  9
$DIMSOXD
 70
     0
  9
$DIMSAH
 70
     0
  9
$DIMBLK1
  1

  9
$DIMBLK2
  1

  9
$DIMSTYLE
  2
ISO-25
  9
$DIMCLRD
 70
     0
  9
$DIMCLRE
 70
     0
  9
$DIMCLRT
 70
     0
  9
$DIMTFAC
 40
1.0
  9
$DIMGAP
 40
1.524
  9
$DIMJUST
 70
     0
  9
$DIMSD1
 70
     0
  9
$DIMSD2
 70
     0
  9
$DIMTOLJ
 70
     0
  9
$DIMTZIN
 70
     0
  9
$DIMALTZ
 70
     0
  9
$DIMALTTZ
 70
     0
  9
$DIMUPT
 70
     0
  9
$DIMDEC
 70
     2
  9
$DIMTDEC
 70
     2
  9
$DIMALTU
 70
     2
  9
$DIMALTTD
 70
     3
  9
$DIMTXSTY
  7
Standard
  9
$DIMAUNIT
 70
     0
  9
$DIMADEC
 70
     2
  9
$DIMALTRND
 40
0.0
  9
$DIMAZIN
 70
     0
  9
$DIMDSEP
 70
    44
  9
$DIMATFIT
 70
     3
  9
$DIMFRAC
 70
     0
  9
$DIMLDRBLK
  1

  9
$DIMLUNIT
 70
     2
  9
$DIMLWD
 70
    -2
  9
$DIMLWE
 70
    -2
  9
$DIMTMOVE
 70
     0
  9
$LUNITS
 70
     2
  9
$LUPREC
 70
     2
  9
$SKETCHINC
 40
1.0
  9
$FILLETRAD
 40
10.0
  9
$AUNITS
 70
     0
  9
$AUPREC
 70
     2
  9
$MENU
  1
.
  9
$ELEVATION
 40
0.0
  9
$PELEVATION
 40
0.0
  9
$THICKNESS
 40
0.0
  9
$LIMCHECK
 70
     0
  9
$CHAMFERA
 40
0.0
  9
$CHAMFERB
 40
0.0
  9
$CHAMFERC
 40
0.0
  9
$CHAMFERD
 40
0.0
  9
$SKPOLY
 70
     0
  9
$TDCREATE
 40
2459741.606160845
  9
$TDUCREATE
 40
2459741.481160845
  9
$TDUPDATE
 40
2459741.606161099
  9
$TDUUPDATE
 40
2459741.481161099
  9
$TDINDWG
 40
0.0000000116
  9
$TDUSRTIMER
 40
0.0000000116
  9
$USRTIMER
 70
     1
  9
$ANGBASE
 50
0.0
  9
$ANGDIR
 70
     0
  9
$PDMODE
 70
     0
  9
$PDSIZE
 40
-1.0
  9
$PLINEWID
 40
0.0
  9
$SPLFRAME
 70
     0
  9
$SPLINETYPE
 70
     6
  9
$SPLINESEGS
 70
     8
  9
$HANDSEED
  5
102
  9
$SURFTAB1
 70
     6
  9
$SURFTAB2
 70
     6
  9
$SURFTYPE
 70
     6
  9
$SURFU
 70
     6
  9
$SURFV
 70
     6
  9
$UCSBASE
  2

  9
$UCSNAME
  2

  9
$UCSORG
 10
0.0
 20
0.0
 30
0.0
  9
$UCSXDIR
 10
1.0
 20
0.0
 30
0.0
  9
$UCSYDIR
 10
0.0
 20
1.0
 30
0.0
  9
$UCSORTHOREF
  2

  9
$UCSORTHOVIEW
 70
     0
  9
$UCSORGTOP
 10
0.0
 20
0.0
 30
0.0
  9
$UCSORGBOTTOM
 10
0.0
 20
0.0
 30
0.0
  9
$UCSORGLEFT
 10
0.0
 20
0.0
 30
0.0
  9
$UCSORGRIGHT
 10
0.0
 20
0.0
 30
0.0
  9
$UCSORGFRONT
 10
0.0
 20
0.0
 30
0.0
  9
$UCSORGBACK
 10
0.0
 20
0.0
 30
0.0
  9
$PUCSBASE
  2

  9
$PUCSNAME
  2

  9
$PUCSORG
 10
0.0
 20
0.0
 30
0.0
  9
$PUCSXDIR
 10
1.0
 20
0.0
 30
0.0
  9
$PUCSYDIR
 10
0.0
 20
1.0
 30
0.0
  9
$PUCSORTHOREF
  2

  9
$PUCSORTHOVIEW
 70
     0
  9
$PUCSORGTOP
 10
0.0
 20
0.0
 30
0.0
  9
$PUCSORGBOTTOM
 10
0.0
 20
0.0
 30
0.0
  9
$PUCSORGLEFT
 10
0.0
 20
0.0
 30
0.0
  9
$PUCSORGRIGHT
 10
0.0
 20
0.0
 30
0.0
  9
$PUCSORGFRONT
 10
0.0
 20
0.0
 30
0.0
  9
$PUCSORGBACK
 10
0.0
 20
0.0
 30
0.0
  9
$USERI1
 70
     0
  9
$USERI2
 70
     0
  9
$USERI3
 70
     0
  9
$USERI4
 70
     0
  9
$USERI5
 70
     0
  9
$USERR1
 40
0.0
  9
$USERR2
 40
0.0
  9
$USERR3
 40
0.0
  9
$USERR4
 40
0.0
  9
$USERR5
 40
0.0
  9
$WORLDVIEW
 70
     1
  9
$SHADEDGE
 70
     3
  9
$SHADEDIF
 70
    70
  9
$TILEMODE
 70
     1
  9
$MAXACTVP
 70
    64
  9
$PINSBASE
 10
0.0
 20
0.0
 30
0.0
  9
$PLIMCHECK
 70
     0
  9
$PEXTMIN
 10
1.0000000000E+20
 20
1.0000000000E+20
 30
1.0000000000E+20
  9
$PEXTMAX
 10
-1.0000000000E+20
 20
-1.0000000000E+20
 30
-1.0000000000E+20
  9
$PLIMMIN
 10
0.0
 20
0.0
  9
$PLIMMAX
 10
420.0
 20
297.0
  9
$UNITMODE
 70
     0
  9
$VISRETAIN
 70
     1
  9
$PLINEGEN
 70
     0
  9
$PSLTSCALE
 70
     1
  9
$TREEDEPTH
 70
  3020
  9
$CMLSTYLE
  2
Standard
  9
$CMLJUST
 70
     0
  9
$CMLSCALE
 40
20.0
  9
$PROXYGRAPHICS
 70
     1
  9
$MEASUREMENT
 70
     1
  9
$CELWEIGHT
370
    -1
  9
$ENDCAPS
280
     0
  9
$JOINSTYLE
280
     0
  9
$LWDISPLAY
290
     1
  9
$INSUNITS
 70
     4
  9
$HYPERLINKBASE
  1

  9
$STYLESHEET
  1

  9
$XEDIT
290
     1
  9
$CEPSNTYPE
380
     0
  9
$PSTYLEMODE
290
     1
  9
$FINGERPRINTGUID
  2
{5324f7fc-64f4-499a-af10-6b455f5e1cf8}
  9
$VERSIONGUID
  2
{FAEB1C32-E019-11D5-929B-00C0DF256EC4}
  9
$EXTNAMES
290
     1
  9
$PSVPSCALE
 40
0.0
  9
$OLESTARTUP
290
     0
  0
ENDSEC
  0
SECTION
  2
CLASSES
  0
CLASS
  1
ACDBDICTIONARYWDFLT
  2
AcDbDictionaryWithDefault
  3
ObjectDBX Classes
 90
        0
280
     0
281
     0
  0
CLASS
  1
VISUALSTYLE
  2
AcDbVisualStyle
  3
ObjectDBX Classes
 90
     4095
280
     0
281
     0
  0
CLASS
  1
MATERIAL
  2
AcDbMaterial
  3
ObjectDBX Classes
 90
     1153
280
     0
281
     0
  0
CLASS
  1
SCALE
  2
AcDbScale
  3
ObjectDBX Classes
 90
     1153
280
     0
281
     0
  0
CLASS
  1
TABLESTYLE
  2
AcDbTableStyle
  3
ObjectDBX Classes
 90
     4095
280
     0
281
     0
  0
CLASS
  1
MLEADERSTYLE
  2
AcDbMLeaderStyle
  3
ACDB_MLEADERSTYLE_CLASS
 90
     4095
280
     0
281
     0
  0
CLASS
  1
SUN
  2
AcDbSun
  3
SCENEOE
 90
     1153
280
     0
281
     0
  0
CLASS
  1
ACDBPLACEHOLDER
  2
AcDbPlaceHolder
  3
ObjectDBX Classes
 90
        0
280
     0
281
     0
  0
CLASS
  1
LAYOUT
  2
AcDbLayout
  3
ObjectDBX Classes
 90
        0
280
     0
281
     0
  0
ENDSEC
  0
SECTION
  2
TABLES
  0
TABLE
  2
VPORT
  5
8
330
0
100
AcDbSymbolTable
 70
     1
  0
VPORT
  5
29
330
8
100
AcDbSymbolTableRecord
100
AcDbViewportTableRecord
  2
*Active
 70
     0
 10
0.0
 20
0.0
 11
1.0
 21
1.0
 12
139.7
 22
107.95
 13
0.0
 23
0.0
 14
10.0
 24
10.0
 15
10.0
 25
10.0
 16
0.0
 26
0.0
 36
1.0
 17
0.0
 27
0.0
 37
0.0
 40
215.9
 41
1.2941176471
 42
50.0
 43
0.0
 44
0.0
 50
0.0
 51
0.0
 71
     0
 72
  2000
 73
     1
 74
     3
 75
     0
 76
     0
 77
     0
 78
     0
281
     0
 65
     1
110
0.0
120
0.0
130
0.0
111
1.0
121
0.0
131
0.0
112
0.0
122
1.0
132
0.0
 79
     0
146
0.0
  0
ENDTAB
  0
TABLE
  2
LTYPE
  5
5
330
0
100
AcDbSymbolTable
 70
     6
  0
LTYPE
  5
14
330
5
100
AcDbSymbolTableRecord
100
AcDbLinetypeTableRecord
  2
ByBlock
 70
     0
  3

 72
    65
 73
     0
 40
0.0
  0
LTYPE
  5
15
330
5
100
AcDbSymbolTableRecord
100
AcDbLinetypeTableRecord
  2
ByLayer
 70
     0
  3

 72
    65
 73
     0
 40
0.0
  0
LTYPE
  5
16
330
5
100
AcDbSymbolTableRecord
100
AcDbLinetypeTableRecord
  2
Continuous
 70
     0
  3
Solid line
 72
    65
 73
     0
 40
0.0
  0
LTYPE
  5
6E
330
5
100
AcDbSymbolTableRecord
100
AcDbLinetypeTableRecord
  2
HIDDEN
 70
     0
  3
Hidden __ __ __ __ __ __ __ __ __ __ __ __ __ __
 72
    65
 73
     2
 40
1.905
 49
1.27
 74
     0
 49
-0.635
 74
     0
  0
LTYPE
  5
6F
330
5
100
AcDbSymbolTableRecord
100
AcDbLinetypeTableRecord
  2
PHANTOM
 70
     0
  3
Phantom ______  __  __  ______  __  __  ______
 72
    65
 73
     6
 40
12.7
 49
6.35
 74
     0
 49
-1.27
 74
     0
 49
1.27
 74
     0
 49
-1.27
 74
     0
 49
1.27
 74
     0
 49
-1.27
 74
     0
  0
LTYPE
  5
70
330
5
100
AcDbSymbolTableRecord
100
AcDbLinetypeTableRecord
  2
CENTER
 70
     0
  3
Center ____ _ ____ _ ____ _ ____ _ ____ _ ____
 72
    65
 73
     4
 40
10.16
 49
6.35
 74
     0
 49
-1.27
 74
     0
 49
1.27
 74
     0
 49
-1.27
 74
     0
  0
LTYPE
  5
71
330
5
100
AcDbSymbolTableRecord
100
AcDbLinetypeTableRecord
  2
CENTERX2
 70
     0
  3
Center (2x) ________  __  ________  __  _____
 72
    65
 73
     4
 40
20.32
 49
12.7
 74
     0
 49
-2.54
 74
     0
 49
2.54
 74
     0
 49
-2.54
 74
     0
  0
LTYPE
  5
72
330
5
100
AcDbSymbolTableRecord
100
AcDbLinetypeTableRecord
  2
DOT2
 70
     0
  3
Dot (.5x) ........................................
 72
    65
 73
     2
 40
0.635
 49
0.0
 74
     0
 49
-0.635
 74
     0
  0
ENDTAB
  0
TABLE
  2
LAYER
  5
2
330
0
100
AcDbSymbolTable
 70
    17
  0
LAYER
  5
10
330
2
100
AcDbSymbolTableRecord
100
AcDbLayerTableRecord
  2
0
 70
     0
 62
     7
  6
Continuous
370
    -3
390
F
  0
LAYER
  5
73
330
2
100
AcDbSymbolTableRecord
100
AcDbLayerTableRecord
  2
FORMAT
 70
     0
 62
     7
  6
Continuous
370
    -3
390
F
  0
LAYER
  5
74
330
2
100
AcDbSymbolTableRecord
100
AcDbLayerTableRecord
  2
YARDIMCI_GEOMETRI
 70
     0
 62
    -6
  6
Continuous
290
     0
370
    -3
390
F
  0
LAYER
  5
75
330
2
100
AcDbSymbolTableRecord
100
AcDbLayerTableRecord
  2
SAYFA_CERCEVESI
 70
     0
 62
     7
  6
Continuous
370
    25
390
F
  0
LAYER
  5
76
330
2
100
AcDbSymbolTableRecord
100
AcDbLayerTableRecord
  2
ANTET
 70
     0
 62
     7
  6
Continuous
370
    -3
390
F
  0
LAYER
  5
77
330
2
100
AcDbSymbolTableRecord
100
AcDbLayerTableRecord
  2
OLCU
 70
     0
 62
   150
  6
Continuous
370
    -3
390
F
  0
LAYER
  5
78
330
2
100
AcDbSymbolTableRecord
100
AcDbLayerTableRecord
  2
METIN
 70
     0
 62
    96
  6
Continuous
370
    -3
390
F
  0
LAYER
  5
79
330
2
100
AcDbSymbolTableRecord
100
AcDbLayerTableRecord
  2
BALON
 70
     0
 62
     5
  6
Continuous
370
    -3
390
F
  0
LAYER
  5
7A
330
2
100
AcDbSymbolTableRecord
100
AcDbLayerTableRecord
  2
VURGU
 70
     0
 62
     7
  6
Continuous
370
    -3
390
F
  0
LAYER
  5
7B
330
2
100
AcDbSymbolTableRecord
100
AcDbLayerTableRecord
  2
SILIK
 70
     0
 62
     7
  6
Continuous
370
    -3
390
F
  0
LAYER
  5
7C
330
2
100
AcDbSymbolTableRecord
100
AcDbLayerTableRecord
  2
MODEL
 70
     0
 62
     7
  6
Continuous
370
    -3
390
F
  0
LAYER
  5
7D
330
2
100
AcDbSymbolTableRecord
100
AcDbLayerTableRecord
  2
DETAYLANDıRMA
 70
     0
 62
   190
  6
Continuous
370
    -3
390
F
  0
LAYER
  5
7E
330
2
100
AcDbSymbolTableRecord
100
AcDbLayerTableRecord
  2
TOLERANS
 70
     0
 62
   230
  6
Continuous
370
    -3
390
F
  0
LAYER
  5
7F
330
2
100
AcDbSymbolTableRecord
100
AcDbLayerTableRecord
  2
MERKEZ_CIZGILERI
 70
     0
 62
    30
  6
Continuous
370
    -3
390
F
  0
LAYER
  5
80
330
2
100
AcDbSymbolTableRecord
100
AcDbLayerTableRecord
  2
KESIT-DETAY_CIZGILERI
 70
     0
 62
     7
  6
Continuous
370
    -3
390
F
  0
LAYER
  5
81
330
2
100
AcDbSymbolTableRecord
100
AcDbLayerTableRecord
  2
\U+041E\U+0421\U+0415\U+0412\U+042B\U+0415
 70
     0
 62
     7
  6
Continuous
370
    -3
390
F
  0
LAYER
  5
82
330
2
100
AcDbSymbolTableRecord
100
AcDbLayerTableRecord
  2
\U+0412\U+041E\U+0414\U+042F\U+041D\U+042B\U+0415_\U+0417\U+041D\U+0410\U+041A\U+0418
 70
     0
 62
    11
  6
Continuous
370
    -3
390
F
  0
ENDTAB
  0
TABLE
  2
STYLE
  5
3
330
0
100
AcDbSymbolTable
 70
     1
  0
STYLE
  5
11
330
3
100
AcDbSymbolTableRecord
100
AcDbTextStyleTableRecord
  2
Standard
 70
     0
 40
0.0
 41
1.0
 50
0.0
 71
     0
 42
3.5
  3
txt
  4

  0
ENDTAB
  0
TABLE
  2
VIEW
  5
6
330
0
100
AcDbSymbolTable
 70
     0
  0
ENDTAB
  0
TABLE
  2
UCS
  5
7
330
0
100
AcDbSymbolTable
 70
     0
  0
ENDTAB
  0
TABLE
  2
APPID
  5
9
330
0
100
AcDbSymbolTable
 70
     1
  0
APPID
  5
12
330
9
100
AcDbSymbolTableRecord
100
AcDbRegAppTableRecord
  2
ACAD
 70
     0
  0
ENDTAB
  0
TABLE
  2
DIMSTYLE
  5
A
330
0
100
AcDbSymbolTable
 70
     1
100
AcDbDimStyleTable
  0
DIMSTYLE
105
27
330
A
100
AcDbSymbolTableRecord
100
AcDbDimStyleTableRecord
  2
ISO-25
 70
     0
 41
2.5
 42
0.625
 43
3.75
 44
1.25
 73
     0
 74
     0
 77
     1
 78
     8
140
2.5
141
2.5
143
0.0393700787
147
0.625
171
     3
172
     1
178
     0
271
     2
272
     2
274
     3
278
    44
283
     0
284
     8
340
11
  0
ENDTAB
  0
TABLE
  2
BLOCK_RECORD
  5
1
330
0
100
AcDbSymbolTable
 70
     5
  0
BLOCK_RECORD
  5
1F
330
1
100
AcDbSymbolTableRecord
100
AcDbBlockTableRecord
  2
*Model_Space
340
22
  0
BLOCK_RECORD
  5
1B
330
1
100
AcDbSymbolTableRecord
100
AcDbBlockTableRecord
  2
*Paper_Space
340
1E
  0
BLOCK_RECORD
  5
23
330
1
100
AcDbSymbolTableRecord
100
AcDbBlockTableRecord
  2
*Paper_Space0
340
26
  0
BLOCK_RECORD
  5
8B
330
1
100
AcDbSymbolTableRecord
100
AcDbBlockTableRecord
  2
SW_CENTERMARKSYMBOL_0
340
0
102
{BLKREFS
331
96
102
}
  0
BLOCK_RECORD
  5
A9
330
1
100
AcDbSymbolTableRecord
100
AcDbBlockTableRecord
  2
SW_CENTERMARKSYMBOL_1
340
0
102
{BLKREFS
331
B4
102
}
  0
BLOCK_RECORD
  5
D9
330
1
100
AcDbSymbolTableRecord
100
AcDbBlockTableRecord
  2
SW_CENTERMARKSYMBOL_2
340
0
102
{BLKREFS
331
E4
102
}
  0
BLOCK_RECORD
  5
E5
330
1
100
AcDbSymbolTableRecord
100
AcDbBlockTableRecord
  2
SW_CENTERMARKSYMBOL_3
340
0
102
{BLKREFS
331
F0
102
}
  0
ENDTAB
  0
ENDSEC
  0
SECTION
  2
BLOCKS
  0
BLOCK
  5
20
330
1F
100
AcDbEntity
  8
0
100
AcDbBlockBegin
  2
*Model_Space
 70
     0
 10
0.0
 20
0.0
 30
0.0
  3
*Model_Space
  1

  0
ENDBLK
  5
21
330
1F
100
AcDbEntity
  8
0
100
AcDbBlockEnd
  0
BLOCK
  5
1C
330
1B
100
AcDbEntity
 67
     1
  8
0
100
AcDbBlockBegin
  2
*Paper_Space
 70
     0
 10
0.0
 20
0.0
 30
0.0
  3
*Paper_Space
  1

  0
ENDBLK
  5
1D
330
1B
100
AcDbEntity
 67
     1
  8
0
100
AcDbBlockEnd
  0
BLOCK
  5
24
330
23
100
AcDbEntity
  8
0
100
AcDbBlockBegin
  2
*Paper_Space0
 70
     0
 10
0.0
 20
0.0
 30
0.0
  3
*Paper_Space0
  1

  0
ENDBLK
  5
25
330
23
100
AcDbEntity
  8
0
100
AcDbBlockEnd
  0
BLOCK
  5
8C
330
8B
100
AcDbEntity
  8
0
100
AcDbBlockBegin
  2
SW_CENTERMARKSYMBOL_0
 70
     0
 10
0.0
 20
0.0
 30
0.0
  3
SW_CENTERMARKSYMBOL_0
  1

  0
LINE
  5
8E
330
8B
100
AcDbEntity
  8
FORMAT
 62
     0
100
AcDbLine
 10
0.0
 20
0.0
 30
0.0
 11
0.0
 21
2.5
 31
0.0
  0
LINE
  5
8F
330
8B
100
AcDbEntity
  8
FORMAT
 62
     0
100
AcDbLine
 10
0.0
 20
0.0
 30
0.0
 11
-2.5
 21
0.0
 31
0.0
  0
LINE
  5
90
330
8B
100
AcDbEntity
  8
FORMAT
 62
     0
100
AcDbLine
 10
0.0
 20
0.0
 30
0.0
 11
0.0
 21
-2.5
 31
0.0
  0
LINE
  5
91
330
8B
100
AcDbEntity
  8
FORMAT
 62
     0
100
AcDbLine
 10
0.0
 20
0.0
 30
0.0
 11
2.5
 21
0.0
 31
0.0
  0
LINE
  5
92
330
8B
100
AcDbEntity
  8
FORMAT
 62
     0
100
AcDbLine
 10
0.0
 20
5.0
 30
0.0
 11
0.0
 21
104.5
 31
0.0
  0
LINE
  5
93
330
8B
100
AcDbEntity
  8
FORMAT
 62
     0
100
AcDbLine
 10
-5.0
 20
0.0
 30
0.0
 11
-104.5
 21
0.0
 31
0.0
  0
LINE
  5
94
330
8B
100
AcDbEntity
  8
FORMAT
 62
     0
100
AcDbLine
 10
0.0
 20
-5.0
 30
0.0
 11
0.0
 21
-104.5
 31
0.0
  0
LINE
  5
95
330
8B
100
AcDbEntity
  8
FORMAT
 62
     0
100
AcDbLine
 10
5.0
 20
0.0
 30
0.0
 11
104.5
 21
0.0
 31
0.0
  0
ENDBLK
  5
8D
330
8B
100
AcDbEntity
  8
0
100
AcDbBlockEnd
  0
BLOCK
  5
AA
330
A9
100
AcDbEntity
  8
0
100
AcDbBlockBegin
  2
SW_CENTERMARKSYMBOL_1
 70
     0
 10
0.0
 20
0.0
 30
0.0
  3
SW_CENTERMARKSYMBOL_1
  1

  0
LINE
  5
AC
330
A9
100
AcDbEntity
  8
FORMAT
 62
     0
100
AcDbLine
 10
0.0
 20
0.0
 30
0.0
 11
0.0
 21
2.5
 31
0.0
  0
LINE
  5
AD
330
A9
100
AcDbEntity
  8
FORMAT
 62
     0
100
AcDbLine
 10
0.0
 20
0.0
 30
0.0
 11
-2.5
 21
0.0
 31
0.0
  0
LINE
  5
AE
330
A9
100
AcDbEntity
  8
FORMAT
 62
     0
100
AcDbLine
 10
0.0
 20
0.0
 30
0.0
 11
0.0
 21
-2.5
 31
0.0
  0
LINE
  5
AF
330
A9
100
AcDbEntity
  8
FORMAT
 62
     0
100
AcDbLine
 10
0.0
 20
0.0
 30
0.0
 11
2.5
 21
0.0
 31
0.0
  0
LINE
  5
B0
330
A9
100
AcDbEntity
  8
FORMAT
 62
     0
100
AcDbLine
 10
0.0
 20
5.0
 30
0.0
 11
0.0
 21
57.5
 31
0.0
  0
LINE
  5
B1
330
A9
100
AcDbEntity
  8
FORMAT
 62
     0
100
AcDbLine
 10
-5.0
 20
0.0
 30
0.0
 11
-57.5
 21
0.0
 31
0.0
  0
LINE
  5
B2
330
A9
100
AcDbEntity
  8
FORMAT
 62
     0
100
AcDbLine
 10
0.0
 20
-5.0
 30
0.0
 11
0.0
 21
-57.5
 31
0.0
  0
LINE
  5
B3
330
A9
100
AcDbEntity
  8
FORMAT
 62
     0
100
AcDbLine
 10
5.0
 20
0.0
 30
0.0
 11
57.5
 21
0.0
 31
0.0
  0
ENDBLK
  5
AB
330
A9
100
AcDbEntity
  8
0
100
AcDbBlockEnd
  0
BLOCK
  5
DA
330
D9
100
AcDbEntity
  8
0
100
AcDbBlockBegin
  2
SW_CENTERMARKSYMBOL_2
 70
     0
 10
0.0
 20
0.0
 30
0.0
  3
SW_CENTERMARKSYMBOL_2
  1

  0
LINE
  5
DC
330
D9
100
AcDbEntity
  8
FORMAT
 62
     0
100
AcDbLine
 10
0.0
 20
0.0
 30
0.0
 11
0.0
 21
2.5
 31
0.0
  0
LINE
  5
DD
330
D9
100
AcDbEntity
  8
FORMAT
 62
     0
100
AcDbLine
 10
0.0
 20
0.0
 30
0.0
 11
-2.5
 21
0.0
 31
0.0
  0
LINE
  5
DE
330
D9
100
AcDbEntity
  8
FORMAT
 62
     0
100
AcDbLine
 10
0.0
 20
0.0
 30
0.0
 11
0.0
 21
-2.5
 31
0.0
  0
LINE
  5
DF
330
D9
100
AcDbEntity
  8
FORMAT
 62
     0
100
AcDbLine
 10
0.0
 20
0.0
 30
0.0
 11
2.5
 21
0.0
 31
0.0
  0
LINE
  5
E0
330
D9
100
AcDbEntity
  8
FORMAT
 62
     0
100
AcDbLine
 10
0.0
 20
5.0
 30
0.0
 11
0.0
 21
9.5
 31
0.0
  0
LINE
  5
E1
330
D9
100
AcDbEntity
  8
FORMAT
 62
     0
100
AcDbLine
 10
-5.0
 20
0.0
 30
0.0
 11
-9.5
 21
0.0
 31
0.0
  0
LINE
  5
E2
330
D9
100
AcDbEntity
  8
FORMAT
 62
     0
100
AcDbLine
 10
0.0
 20
-5.0
 30
0.0
 11
0.0
 21
-9.5
 31
0.0
  0
LINE
  5
E3
330
D9
100
AcDbEntity
  8
FORMAT
 62
     0
100
AcDbLine
 10
5.0
 20
0.0
 30
0.0
 11
9.5
 21
0.0
 31
0.0
  0
ENDBLK
  5
DB
330
D9
100
AcDbEntity
  8
0
100
AcDbBlockEnd
  0
BLOCK
  5
E6
330
E5
100
AcDbEntity
  8
0
100
AcDbBlockBegin
  2
SW_CENTERMARKSYMBOL_3
 70
     0
 10
0.0
 20
0.0
 30
0.0
  3
SW_CENTERMARKSYMBOL_3
  1

  0
LINE
  5
E8
330
E5
100
AcDbEntity
  8
FORMAT
 62
     0
100
AcDbLine
 10
0.0
 20
0.0
 30
0.0
 11
0.0
 21
2.5
 31
0.0
  0
LINE
  5
E9
330
E5
100
AcDbEntity
  8
FORMAT
 62
     0
100
AcDbLine
 10
0.0
 20
0.0
 30
0.0
 11
-2.5
 21
0.0
 31
0.0
  0
LINE
  5
EA
330
E5
100
AcDbEntity
  8
FORMAT
 62
     0
100
AcDbLine
 10
0.0
 20
0.0
 30
0.0
 11
0.0
 21
-2.5
 31
0.0
  0
LINE
  5
EB
330
E5
100
AcDbEntity
  8
FORMAT
 62
     0
100
AcDbLine
 10
0.0
 20
0.0
 30
0.0
 11
2.5
 21
0.0
 31
0.0
  0
LINE
  5
EC
330
E5
100
AcDbEntity
  8
FORMAT
 62
     0
100
AcDbLine
 10
0.0
 20
5.0
 30
0.0
 11
0.0
 21
9.5
 31
0.0
  0
LINE
  5
ED
330
E5
100
AcDbEntity
  8
FORMAT
 62
     0
100
AcDbLine
 10
-5.0
 20
0.0
 30
0.0
 11
-9.5
 21
0.0
 31
0.0
  0
LINE
  5
EE
330
E5
100
AcDbEntity
  8
FORMAT
 62
     0
100
AcDbLine
 10
0.0
 20
-5.0
 30
0.0
 11
0.0
 21
-9.5
 31
0.0
  0
LINE
  5
EF
330
E5
100
AcDbEntity
  8
FORMAT
 62
     0
100
AcDbLine
 10
5.0
 20
0.0
 30
0.0
 11
9.5
 21
0.0
 31
0.0
  0
ENDBLK
  5
E7
330
E5
100
AcDbEntity
  8
0
100
AcDbBlockEnd
  0
ENDSEC
  0
SECTION
  2
ENTITIES
  0
LINE
  5
83
330
1F
100
AcDbEntity
  8
0
  6
Continuous
 62
     7
370
    25
100
AcDbLine
 10
98.3875715734
 20
208.313040524
 30
0.0
 11
98.3875715734
 21
225.5474520836
 31
0.0
  0
LINE
  5
84
330
1F
100
AcDbEntity
  8
0
  6
Continuous
 62
     7
370
    25
100
AcDbLine
 10
84.3875715734
 20
225.5474520836
 30
0.0
 11
84.3875715734
 21
208.3075097106
 31
0.0
  0
LINE
  5
85
330
1F
100
AcDbEntity
  8
0
  6
Continuous
 62
     7
370
    25
100
AcDbLine
 10
177.3494632654
 20
51.5474520836
 30
0.0
 11
282.3875715734
 21
51.5474520836
 31
0.0
  0
LINE
  5
86
330
1F
100
AcDbEntity
  8
0
  6
Continuous
 62
     7
370
    25
100
AcDbLine
 10
282.3875715734
 20
161.5474520836
 30
0.0
 11
177.3153069919
 21
161.5474520836
 31
0.0
  0
CIRCLE
  5
87
330
1F
100
AcDbEntity
  8
0
  6
Continuous
 62
     7
370
    25
100
AcDbCircle
 10
91.3875715734
 20
106.5474520836
 30
0.0
 40
80.00000000000003
  0
CIRCLE
  5
88
330
1F
100
AcDbEntity
  8
0
  6
Continuous
 62
     7
370
    25
100
AcDbCircle
 10
91.3875715734
 20
106.5474520836
 30
0.0
 40
102.0
  0
LINE
  5
89
330
1F
100
AcDbEntity
  8
0
  6
Continuous
 62
     7
370
    25
100
AcDbLine
 10
98.3875715734
 20
225.5474520836
 30
0.0
 11
84.3875715734
 21
225.5474520836
 31
0.0
  0
LINE
  5
8A
330
1F
100
AcDbEntity
  8
0
  6
Continuous
 62
     7
370
    25
100
AcDbLine
 10
282.3875715734
 20
161.5474520836
 30
0.0
 11
282.3875715734
 21
51.5474520836
 31
0.0
  0
INSERT
  5
96
330
1F
100
AcDbEntity
  8
FORMAT
 62
     7
100
AcDbBlockReference
  2
SW_CENTERMARKSYMBOL_0
 10
91.3875715734
 20
106.5474520836
 30
0.0
  0
LINE
  5
97
330
1F
100
AcDbEntity
  8
0
  6
Continuous
 62
     7
370
    25
100
AcDbLine
 10
-445.4312127927
 20
208.5474520836
 30
0.0
 11
-446.5174932562
 21
208.5474520836
 31
0.0
  0
LINE
  5
98
330
1F
100
AcDbEntity
  8
0
  6
Continuous
 62
     7
370
    25
100
AcDbLine
 10
-141.4312127927
 20
208.5474520836
 30
0.0
 11
-431.5174932562
 21
208.5474520836
 31
0.0
  0
LINE
  5
99
330
1F
100
AcDbEntity
  8
0
  6
Continuous
 62
     7
370
    25
100
AcDbLine
 10
-126.5174932562
 20
208.5474520836
 30
0.0
 11
-127.5174932562
 21
208.5474520836
 31
0.0
  0
LINE
  5
9A
330
1F
100
AcDbEntity
  8
0
  6
Continuous
 62
     7
370
    25
100
AcDbLine
 10
-446.5174932562
 20
4.5474520836
 30
0.0
 11
-126.5174932562
 21
4.5474520836
 31
0.0
  0
LINE
  5
9B
330
1F
100
AcDbEntity
  8
0
  6
Continuous
 62
     7
370
    25
100
AcDbLine
 10
-127.5174932562
 20
208.5474520836
 30
0.0
 11
-127.5174932562
 21
225.5474520836
 31
0.0
  0
LINE
  5
9C
330
1F
100
AcDbEntity
  8
0
  6
Continuous
 62
     7
370
    25
100
AcDbLine
 10
-141.5174932562
 20
225.5474520836
 30
0.0
 11
-141.5174932562
 21
208.5416103819
 31
0.0
  0
LINE
  5
9D
330
1F
100
AcDbEntity
  8
0
  6
Continuous
 62
     7
370
    25
100
AcDbLine
 10
-431.5174932562
 20
208.5474520836
 30
0.0
 11
-431.5174932562
 21
225.5474520836
 31
0.0
  0
LINE
  5
9E
330
1F
100
AcDbEntity
  8
0
  6
Continuous
 62
     7
370
    25
100
AcDbLine
 10
-445.5174932562
 20
225.5474520836
 30
0.0
 11
-445.5174932562
 21
208.5416103819
 31
0.0
  0
CIRCLE
  5
9F
330
1F
100
AcDbEntity
  8
0
  6
Continuous
 62
     7
370
    25
100
AcDbCircle
 10
-286.5174932562
 20
106.5474520836
 30
0.0
 40
44.99999999999997
  0
CIRCLE
  5
A0
330
1F
100
AcDbEntity
  8
0
  6
Continuous
 62
     7
370
    25
100
AcDbCircle
 10
-286.5174932562
 20
106.5474520836
 30
0.0
 40
55.0
  0
LINE
  5
A1
330
1F
100
AcDbEntity
  8
0
  6
Continuous
 62
     7
370
    25
100
AcDbLine
 10
-446.5174932562
 20
106.5474520836
 30
0.0
 11
-446.5174932562
 21
208.5474520836
 31
0.0
  0
LINE
  5
A2
330
1F
100
AcDbEntity
  8
0
  6
Continuous
 62
     7
370
    25
100
AcDbLine
 10
-446.5174932562
 20
4.5474520836
 30
0.0
 11
-446.5174932562
 21
106.5474520836
 31
0.0
  0
LINE
  5
A3
330
1F
100
AcDbEntity
  8
0
  6
Continuous
 62
     7
370
    25
100
AcDbLine
 10
-126.5174932562
 20
106.5474520836
 30
0.0
 11
-126.5174932562
 21
208.5474520836
 31
0.0
  0
LINE
  5
A4
330
1F
100
AcDbEntity
  8
0
  6
Continuous
 62
     7
370
    25
100
AcDbLine
 10
-126.5174932562
 20
4.5474520836
 30
0.0
 11
-126.5174932562
 21
106.5474520836
 31
0.0
  0
SPLINE
  5
A5
330
1F
100
AcDbEntity
  8
0
  6
Continuous
 62
     7
370
    25
100
AcDbSpline
210
0.0
220
0.0
230
1.0
 70
     8
 71
     3
 72
    17
 73
    13
 74
     0
 42
0.00000001
 43
0.00000001
 40
0.0
 40
0.0
 40
0.0
 40
0.0
 40
0.1071987416107221
 40
0.2143914004444458
 40
0.3217420566552194
 40
0.4291972110293517
 40
0.5364801409012592
 40
0.6435828546421558
 40
0.7507785987758452
 40
0.858195229673666
 40
0.9656163607216554
 40
0.9999999999999999
 40
0.9999999999999999
 40
0.9999999999999999
 40
0.9999999999999999
 10
-431.5174932561769
 20
208.5474520835824
 30
0.0
 10
-431.5947025288806
 20
208.5420027309091
 30
0.0
 10
-431.749116693203
 20
208.5311043347752
 30
0.0
 10
-432.9525984323552
 20
208.4553097962091
 30
0.0
 10
-434.7264510104137
 20
208.370910764049
 30
0.0
 10
-436.9438957821112
 20
208.3100666403167
 30
0.0
 10
-439.3347033126716
 20
208.3009752272697
 30
0.0
 10
-441.6280812975427
 20
208.3468043986889
 30
0.0
 10
-443.5865347537815
 20
208.4287168192154
 30
0.0
 10
-444.9211800157436
 20
208.5064967313299
 30
0.0
 10
-445.5558127948849
 20
208.5500466961183
 30
0.0
 10
-445.4555288163403
 20
208.5432394590694
 30
0.0
 10
-445.4312127927275
 20
208.5415888969435
 30
0.0
  0
SPLINE
  5
A6
330
1F
100
AcDbEntity
  8
0
  6
Continuous
 62
     7
370
    25
100
AcDbSpline
210
0.0
220
0.0
230
1.0
 70
     8
 71
     3
 72
    17
 73
    13
 74
     0
 42
0.00000001
 43
0.00000001
 40
0.0
 40
0.0
 40
0.0
 40
0.0
 40
0.1071987416107219
 40
0.2143914004444454
 40
0.3217420566552188
 40
0.4291972110293509
 40
0.5364801409012583
 40
0.6435828546421547
 40
0.750778598775844
 40
0.8581952296736646
 40
0.9656163607216537
 40
1.0
 40
1.0
 40
1.0
 40
1.0
 10
-127.517493256177
 20
208.5474520835824
 30
0.0
 10
-127.5947025288806
 20
208.5420027309091
 30
0.0
 10
-127.7491166932029
 20
208.5311043347751
 30
0.0
 10
-128.9525984323553
 20
208.4553097962091
 30
0.0
 10
-130.7264510104136
 20
208.3709107640491
 30
0.0
 10
-132.9438957821112
 20
208.3100666403166
 30
0.0
 10
-135.3347033126717
 20
208.3009752272697
 30
0.0
 10
-137.6280812975426
 20
208.3468043986889
 30
0.0
 10
-139.5865347537815
 20
208.4287168192154
 30
0.0
 10
-140.9211800157436
 20
208.5064967313299
 30
0.0
 10
-141.5558127948849
 20
208.5500466961183
 30
0.0
 10
-141.4555288163403
 20
208.5432394590694
 30
0.0
 10
-141.4312127927275
 20
208.5415888969435
 30
0.0
  0
LINE
  5
A7
330
1F
100
AcDbEntity
  8
0
  6
Continuous
 62
     7
370
    25
100
AcDbLine
 10
-127.5174932562
 20
225.5474520836
 30
0.0
 11
-141.5174932562
 21
225.5474520836
 31
0.0
  0
LINE
  5
A8
330
1F
100
AcDbEntity
  8
0
  6
Continuous
 62
     7
370
    25
100
AcDbLine
 10
-431.5174932562
 20
225.5474520836
 30
0.0
 11
-445.5174932562
 21
225.5474520836
 31
0.0
  0
INSERT
  5
B4
330
1F
100
AcDbEntity
  8
FORMAT
 62
     7
100
AcDbBlockReference
  2
SW_CENTERMARKSYMBOL_1
 10
-286.5174932562
 20
106.5474520836
 30
0.0
  0
LINE
  5
B5
330
1F
100
AcDbEntity
  8
0
  6
Continuous
 62
     7
370
    25
100
AcDbLine
 10
193.3875715734
 20
513.3777713428
 30
0.0
 11
193.3875715734
 21
618.3777713428
 31
0.0
  0
LINE
  5
B6
330
1F
100
AcDbEntity
  8
0
  6
Continuous
 62
     7
370
    25
100
AcDbLine
 10
193.3875715734
 20
298.3777713428
 30
0.0
 11
193.3875715734
 21
403.3838018754
 31
0.0
  0
LINE
  5
B7
330
1F
100
AcDbEntity
  8
0
  6
Continuous
 62
     7
370
    25
100
AcDbLine
 10
-10.6124284266
 20
618.3777713428
 30
0.0
 11
-10.6124284266
 21
298.3777713428
 31
0.0
  0
LINE
  5
B8
330
1F
100
AcDbEntity
  8
0
  6
Continuous
 62
     7
370
    25
100
AcDbLine
 10
193.3841993934
 20
403.3777713428
 30
0.0
 11
282.3875715734
 21
403.3777713428
 31
0.0
  0
LINE
  5
B9
330
1F
100
AcDbEntity
  8
0
  6
Continuous
 62
     7
370
    25
100
AcDbLine
 10
282.3875715734
 20
513.3777713428
 30
0.0
 11
193.3875715734
 21
513.3777713428
 31
0.0
  0
SPLINE
  5
BA
330
1F
100
AcDbEntity
  8
0
  6
Continuous
 62
     7
370
    25
100
AcDbSpline
210
0.0
220
0.0
230
1.0
 70
     8
 71
     3
 72
    45
 73
    41
 74
     0
 42
0.00000001
 43
0.00000001
 40
0.0
 40
0.0
 40
0.0
 40
0.0
 40
0.0240012644348599
 40
0.0480030030561931
 40
0.0727553546610409
 40
0.0975090862560615
 40
0.1214934475835024
 40
0.1454792802709992
 40
0.1700789747619318
 40
0.1946800514396344
 40
0.2203012708796953
 40
0.2459233690296654
 40
0.2721671951511246
 40
0.2984108020380951
 40
0.326327434110194
 40
0.3542419255962183
 40
0.3830755206631581
 40
0.4119048237114544
 40
0.4379562331518177
 40
0.4640049492440736
 40
0.491092001646892
 40
0.5181784839834028
 40
0.5405695799873322
 40
0.5629617805900275
 40
0.5859800248637571
 40
0.6090001202415026
 40
0.6548931491630334
 40
0.7017987097827318
 40
0.7281916947353964
 40
0.7545848950820262
 40
0.7816552166935307
 40
0.8087244008792247
 40
0.836633682946768
 40
0.8645405826385739
 40
0.8934271921600454
 40
0.9223107654485349
 40
0.9476538426884049
 40
0.972995729314679
 40
0.9992356669723343
 40
1.0
 40
1.0
 40
1.0
 40
1.0
 10
193.3875715733968
 20
513.377771342792
 30
0.0
 10
193.3704524559353
 20
513.3461510363649
 30
0.0
 10
193.3362138827943
 20
513.2829097987967
 30
0.0
 10
193.0621984494591
 20
512.7727666911087
 30
0.0
 10
192.6231679956959
 20
511.9493457465637
 30
0.0
 10
192.0174649847152
 20
510.7969629192005
 30
0.0
 10
191.2719338981713
 20
509.3533776140705
 30
0.0
 10
190.4022048640686
 20
507.629763032941
 30
0.0
 10
189.413975085247
 20
505.6153516369072
 30
0.0
 10
188.3119696354079
 20
503.2879694714844
 30
0.0
 10
187.1223837236771
 20
500.6654350943106
 30
0.0
 10
185.8595452086657
 20
497.7293043282268
 30
0.0
 10
184.5657081960906
 20
494.5212097820703
 30
0.0
 10
183.2445303808543
 20
490.9765986239179
 30
0.0
 10
181.9416022120855
 20
487.1167726774564
 30
0.0
 10
180.6869629935798
 20
482.8982935327997
 30
0.0
 10
179.5556425107513
 20
478.4099945226224
 30
0.0
 10
178.6270952816327
 20
473.8257828222286
 30
0.0
 10
177.9365621285382
 20
469.2466460941953
 30
0.0
 10
177.4761277952697
 20
464.6643765029342
 30
0.0
 10
177.260257497599
 20
459.9570480118303
 30
0.0
 10
177.3011670702457
 20
455.4483705103339
 30
0.0
 10
177.5556537352474
 20
451.2448364340029
 30
0.0
 10
177.9671199979986
 20
447.3299187221533
 30
0.0
 10
178.5477138931467
 20
443.4569385942164
 30
0.0
 10
179.523303542672
 20
438.3911411298694
 30
0.0
 10
181.0730146532643
 20
432.3107421091935
 30
0.0
 10
182.9444733748993
 20
426.5815465733911
 30
0.0
 10
184.5827147531245
 20
422.1900707051337
 30
0.0
 10
185.9055019377839
 20
418.9140710719918
 30
0.0
 10
187.2166630326531
 20
415.8746441872193
 30
0.0
 10
188.4971286459476
 20
413.0665155224216
 30
0.0
 10
189.6997620214965
 20
410.5473933080593
 30
0.0
 10
190.8033920814829
 20
408.3225066152417
 30
0.0
 10
191.7563558722794
 20
406.458404586089
 30
0.0
 10
192.4916334483583
 20
405.0548796746413
 30
0.0
 10
193.0076581848768
 20
404.0840703115205
 30
0.0
 10
193.2980141737671
 20
403.5439748155729
 30
0.0
 10
193.4198134298539
 20
403.3175808913239
 30
0.0
 10
193.385176233428
 20
403.3819791375748
 30
0.0
 10
193.3841958568971
 20
403.3838018754338
 30
0.0
  0
LINE
  5
BB
330
1F
100
AcDbEntity
  8
0
  6
Continuous
 62
     7
370
    25
100
AcDbLine
 10
-10.6124284266
 20
618.3777713428
 30
0.0
 11
193.3875715734
 21
618.3777713428
 31
0.0
  0
LINE
  5
BC
330
1F
100
AcDbEntity
  8
0
  6
Continuous
 62
     7
370
    25
100
AcDbLine
 10
-10.6124284266
 20
298.3777713428
 30
0.0
 11
193.3875715734
 21
298.3777713428
 31
0.0
  0
LINE
  5
BD
330
1F
100
AcDbEntity
  8
0
  6
Continuous
 62
     7
370
    25
100
AcDbLine
 10
282.3875715734
 20
513.3777713428
 30
0.0
 11
282.3875715734
 21
403.3777713428
 31
0.0
  0
LINE
  5
BE
330
1F
100
AcDbEntity
  8
0
  6
Continuous
 62
     7
370
    25
100
AcDbLine
 10
387.8937776232
 20
4.5474520836
 30
0.0
 11
707.8937776232
 21
4.5474520836
 31
0.0
  0
LINE
  5
BF
330
1F
100
AcDbEntity
  8
0
  6
Continuous
 62
     7
370
    25
100
AcDbLine
 10
388.8937776232
 20
208.5474520836
 30
0.0
 11
387.8937776232
 21
208.5474520836
 31
0.0
  0
LINE
  5
C0
330
1F
100
AcDbEntity
  8
0
  6
Continuous
 62
     7
370
    25
100
AcDbLine
 10
692.8937776232
 20
208.5474520836
 30
0.0
 11
402.8074971598
 21
208.5474520836
 31
0.0
  0
LINE
  5
C1
330
1F
100
AcDbEntity
  8
0
  6
Continuous
 62
     7
370
    25
100
AcDbLine
 10
707.8937776232
 20
208.5474520836
 30
0.0
 11
706.8074971598
 21
208.5474520836
 31
0.0
  0
LINE
  5
C2
330
1F
100
AcDbEntity
  8
0
  6
Continuous
 62
     7
370
    25
100
AcDbLine
 10
402.8937776232
 20
208.5416103819
 30
0.0
 11
402.8937776232
 21
225.5474520836
 31
0.0
  0
LINE
  5
C3
330
1F
100
AcDbEntity
  8
0
  6
Continuous
 62
     7
370
    25
100
AcDbLine
 10
388.8937776232
 20
225.5474520836
 30
0.0
 11
388.8937776232
 21
208.5474520836
 31
0.0
  0
LINE
  5
C4
330
1F
100
AcDbEntity
  8
0
  6
Continuous
 62
     7
370
    25
100
AcDbLine
 10
706.8937776232
 20
208.5416103819
 30
0.0
 11
706.8937776232
 21
225.5474520836
 31
0.0
  0
LINE
  5
C5
330
1F
100
AcDbEntity
  8
0
  6
Continuous
 62
     7
370
    25
100
AcDbLine
 10
692.8937776232
 20
225.5474520836
 30
0.0
 11
692.8937776232
 21
208.5474520836
 31
0.0
  0
LINE
  5
C6
330
1F
100
AcDbEntity
  8
0
  6
Continuous
 62
     7
370
    25
100
AcDbLine
 10
707.8937776232
 20
208.5474520836
 30
0.0
 11
707.8937776232
 21
4.5474520836
 31
0.0
  0
LINE
  5
C7
330
1F
100
AcDbEntity
  8
0
  6
Continuous
 62
     7
370
    25
100
AcDbLine
 10
387.8937776232
 20
208.5474520836
 30
0.0
 11
387.8937776232
 21
4.5474520836
 31
0.0
  0
ARC
  5
C8
330
1F
100
AcDbEntity
  8
0
  6
Continuous
 62
     7
370
    25
100
AcDbCircle
 10
699.8935652032
 20
310.4149826494
 30
0.0
 40
102.107741184208
100
AcDbArc
 50
266.0691219218
 51
273.8825896491
  0
ARC
  5
C9
330
1F
100
AcDbEntity
  8
0
  6
Continuous
 62
     7
370
    25
100
AcDbCircle
 10
395.8935652032
 20
310.4149826494
 30
0.0
 40
102.1077411842198
100
AcDbArc
 50
266.0691219218
 51
273.8825896491
  0
LINE
  5
CA
330
1F
100
AcDbEntity
  8
0
  6
Continuous
 62
     7
370
    25
100
AcDbLine
 10
402.8937776232
 20
225.5474520836
 30
0.0
 11
388.8937776232
 21
225.5474520836
 31
0.0
  0
LINE
  5
CB
330
1F
100
AcDbEntity
  8
0
  6
Continuous
 62
     7
370
    25
100
AcDbLine
 10
706.8937776232
 20
225.5474520836
 30
0.0
 11
692.8937776232
 21
225.5474520836
 31
0.0
  0
LINE
  5
CC
330
1F
100
AcDbEntity
  8
0
  6
Continuous
 62
     7
370
    25
100
AcDbLine
 10
-10.6124284266
 20
-92.3098706039
 30
0.0
 11
-10.6124284266
 21
-412.3098706039
 31
0.0
  0
LINE
  5
CD
330
1F
100
AcDbEntity
  8
0
  6
Continuous
 62
     7
370
    25
100
AcDbLine
 10
193.3875715734
 20
-197.3159011366
 30
0.0
 11
193.3875715734
 21
-92.3098706039
 31
0.0
  0
LINE
  5
CE
330
1F
100
AcDbEntity
  8
0
  6
Continuous
 62
     7
370
    25
100
AcDbLine
 10
193.3875715734
 20
-412.3098706039
 30
0.0
 11
193.3875715734
 21
-307.3098706039
 31
0.0
  0
LINE
  5
CF
330
1F
100
AcDbEntity
  8
0
  6
Continuous
 62
     7
370
    25
100
AcDbLine
 10
193.3875715734
 20
-307.3098706039
 30
0.0
 11
282.3875715734
 21
-307.3098706039
 31
0.0
  0
LINE
  5
D0
330
1F
100
AcDbEntity
  8
0
  6
Continuous
 62
     7
370
    25
100
AcDbLine
 10
282.3875715734
 20
-197.3098706039
 30
0.0
 11
193.3841993934
 21
-197.3098706039
 31
0.0
  0
CIRCLE
  5
D1
330
1F
100
AcDbEntity
  8
0
  6
Continuous
 62
     7
370
    25
100
AcDbCircle
 10
91.3875715734
 20
-100.3098706039
 30
0.0
 40
5.0
  0
CIRCLE
  5
D2
330
1F
100
AcDbEntity
  8
0
  6
Continuous
 62
     7
370
    25
100
AcDbCircle
 10
91.3875715734
 20
-100.3098706039
 30
0.0
 40
7.000000000000014
  0
CIRCLE
  5
D3
330
1F
100
AcDbEntity
  8
0
  6
Continuous
 62
     7
370
    25
100
AcDbCircle
 10
91.3875715734
 20
-404.3098706039
 30
0.0
 40
5.0
  0
CIRCLE
  5
D4
330
1F
100
AcDbEntity
  8
0
  6
Continuous
 62
     7
370
    25
100
AcDbCircle
 10
91.3875715734
 20
-404.3098706039
 30
0.0
 40
7.0
  0
LWPOLYLINE
  5
D5
330
1F
100
AcDbEntity
  8
0
  6
Continuous
 62
     7
370
    25
100
AcDbPolyline
 90
       35
 70
   128
 43
0.0
 10
193.3841958569
 20
-197.3159011366
 10
193.2887692661
 20
-197.4933211758
 10
193.0310471703
 20
-197.9737803019
 10
192.6200884074
 20
-198.746613939
 10
192.0468127662
 20
-199.8380151725
 10
191.3343319803
 20
-201.2182380616
 10
189.5575093235
 20
-204.7879106501
 10
187.3793706901
 20
-209.4680044253
 10
186.1082378195
 20
-212.3973394792
 10
184.8108925092
 20
-215.5822666163
 10
183.4855532056
 20
-219.0978845386
 10
182.1996900594
 20
-222.8507317176
 10
180.9436644536
 20
-226.9866464911
 10
179.8109921448
 20
-231.3408146991
 10
178.8136884098
 20
-236.0546245971
 10
178.0378183056
 20
-240.940382544
 10
177.575223376
 20
-245.2941568485
 10
177.3280121689
 20
-249.7099995001
 10
177.3128741703
 20
-254.3196926999
 10
177.541845824
 20
-258.9097926975
 10
178.4542050028
 20
-266.5084147806
 10
179.9672991546
 20
-273.9285694167
 10
181.9807051014
 20
-281.0868725746
 10
184.2974080141
 20
-287.7109681497
 10
185.6352062072
 20
-291.0864332936
 10
186.9570200636
 20
-294.1968552737
 10
188.2636591427
 20
-297.0981232913
 10
189.4848273695
 20
-299.6815034101
 10
190.5826716078
 20
-301.9151620376
 10
191.5338284545
 20
-303.7906705909
 10
192.3346166228
 20
-305.331895087
 10
192.9230418701
 20
-306.4435175195
 10
193.2692751509
 20
-307.0901729384
 10
193.3875715734
 20
-307.3098706039
 10
193.3875715734
 20
-307.3098706039
  0
LINE
  5
D6
330
1F
100
AcDbEntity
  8
0
  6
Continuous
 62
     7
370
    25
100
AcDbLine
 10
193.3875715734
 20
-412.3098706039
 30
0.0
 11
-10.6124284266
 21
-412.3098706039
 31
0.0
  0
LINE
  5
D7
330
1F
100
AcDbEntity
  8
0
  6
Continuous
 62
     7
370
    25
100
AcDbLine
 10
193.3875715734
 20
-92.3098706039
 30
0.0
 11
-10.6124284266
 21
-92.3098706039
 31
0.0
  0
LINE
  5
D8
330
1F
100
AcDbEntity
  8
0
  6
Continuous
 62
     7
370
    25
100
AcDbLine
 10
282.3875715734
 20
-197.3098706039
 30
0.0
 11
282.3875715734
 21
-307.3098706039
 31
0.0
  0
INSERT
  5
E4
330
1F
100
AcDbEntity
  8
FORMAT
 62
     7
100
AcDbBlockReference
  2
SW_CENTERMARKSYMBOL_2
 10
91.3875715734
 20
-404.3098706039
 30
0.0
  0
INSERT
  5
F0
330
1F
100
AcDbEntity
  8
FORMAT
 62
     7
100
AcDbBlockReference
  2
SW_CENTERMARKSYMBOL_3
 10
91.3875715734
 20
-100.3098706039
 30
0.0
  0
LINE
  5
F1
330
1F
100
AcDbEntity
  8
0
  6
Continuous
 62
     7
370
    25
100
AcDbLine
 10
698.7944031252
 20
-222.1758725492
 30
0.0
 11
691.6742227841
 21
-218.0654799304
 31
0.0
  0
LINE
  5
F2
330
1F
100
AcDbEntity
  8
0
  6
Continuous
 62
     7
370
    25
100
AcDbLine
 10
581.6652826475
 20
-154.55867057
 30
0.0
 11
472.5202331456
 21
-91.5505746576
 31
0.0
  0
LINE
  5
F3
330
1F
100
AcDbEntity
  8
0
  6
Continuous
 62
     7
370
    25
100
AcDbLine
 10
370.5285224167
 20
-268.2245425832
 30
0.0
 11
596.8026923964
 21
-398.8498404749
 31
0.0
  0
LINE
  5
F4
330
1F
100
AcDbEntity
  8
0
  6
Continuous
 62
     7
370
    25
100
AcDbLine
 10
628.8306640118
 20
-254.3442941934
 30
0.0
 11
697.2166231251
 21
-214.8659203181
 31
0.0
  0
LINE
  5
F5
330
1F
100
AcDbEntity
  8
0
  6
Continuous
 62
     7
370
    25
100
AcDbLine
 10
642.2210928301
 20
-119.6005454562
 30
0.0
 11
573.8374906535
 21
-159.0775587009
 31
0.0
  0
LINE
  5
F6
330
1F
100
AcDbEntity
  8
0
  6
Continuous
 62
     7
370
    25
100
AcDbLine
 10
434.1812320306
 20
-90.5861944653
 30
0.0
 11
434.1812320306
 21
-85.9848344533
 31
0.0
  0
LINE
  5
F7
330
1F
100
AcDbEntity
  8
0
  6
Continuous
 62
     7
370
    25
100
AcDbLine
 10
420.1812320306
 20
-85.9848344533
 30
0.0
 11
420.1812320306
 21
-97.3902204869
 31
0.0
  0
SPLINE
  5
F8
330
1F
100
AcDbEntity
  8
0
  6
Continuous
 62
     7
370
    25
100
AcDbSpline
210
0.0
220
0.0
230
1.0
 70
     8
 71
     3
 72
    29
 73
    25
 74
     0
 42
0.00000001
 43
0.00000001
 40
0.0
 40
0.0
 40
0.0
 40
0.0
 40
0.0432604658208171
 40
0.0866747947877667
 40
0.1299489077756998
 40
0.1730678080867322
 40
0.2163174176373322
 40
0.2594576155162925
 40
0.3054986734810438
 40
0.3516659724731578
 40
0.3977124121435938
 40
0.448090603619502
 40
0.4986329106799871
 40
0.5489640821951813
 40
0.5961116712946091
 40
0.6434528167333056
 40
0.6905740386824544
 40
0.7308693702078214
 40
0.7712978161729982
 40
0.8116153890745624
 40
0.8734555980042504
 40
0.9353234961109358
 40
0.9827852650139148
 40
1.0
 40
1.0
 40
1.0
 40
1.0
 10
567.8954814867265
 20
-181.1121707881227
 30
0.0
 10
567.9144540504243
 20
-182.7082093552685
 30
0.0
 10
567.9524666569442
 20
-185.9059630700274
 30
0.0
 10
568.2560651991957
 20
-191.1027536988405
 30
0.0
 10
568.7401401359662
 20
-196.4910844451371
 30
0.0
 10
569.4275885142416
 20
-202.0332562416125
 30
0.0
 10
570.3151996298246
 20
-207.6390594571523
 30
0.0
 10
571.4380449416321
 20
-213.3777014073667
 30
0.0
 10
572.827112063948
 20
-219.1807937486234
 30
0.0
 10
574.5189243818871
 20
-224.9725739115547
 30
0.0
 10
576.5689776875635
 20
-230.7383194816827
 30
0.0
 10
579.051856597943
 20
-236.3738964193861
 30
0.0
 10
582.0354399485797
 20
-241.7526656323943
 30
0.0
 10
585.4022051410077
 20
-246.5070573453475
 30
0.0
 10
589.1631619966633
 20
-250.5351133976211
 30
0.0
 10
593.2361531728591
 20
-253.8223994799028
 30
0.0
 10
597.4453859274885
 20
-256.263324105301
 30
0.0
 10
601.6852275410583
 20
-257.8927888628388
 30
0.0
 10
605.8332754690213
 20
-258.8659212821998
 30
0.0
 10
610.8011484341438
 20
-259.3455528505314
 30
0.0
 10
616.5393342939869
 20
-258.9537294640089
 30
0.0
 10
622.3025170067726
 20
-257.4254563214294
 30
0.0
 10
626.3931201385914
 20
-255.771549119458
 30
0.0
 10
628.2865602773574
 20
-254.5905149178388
 30
0.0
 10
628.7905310896447
 20
-254.2761628801151
 30
0.0
  0
SPLINE
  5
F9
330
1F
100
AcDbEntity
  8
0
  6
Continuous
 62
     7
370
    25
100
AcDbSpline
210
0.0
220
0.0
230
1.0
 70
     8
 71
     3
 72
    15
 73
    11
 74
     0
 42
0.00000001
 43
0.00000001
 40
0.0
 40
0.0
 40
0.0
 40
0.0
 40
0.0342228972091195
 40
0.1808286439515239
 40
0.3269631740468939
 40
0.4770659782862464
 40
0.6277183633417394
 40
0.7777038198824106
 40
0.888853848684038
 40
1.0
 40
1.0
 40
1.0
 40
1.0
 10
573.8687159519955
 20
-159.1338352010027
 30
0.0
 10
573.7181141652546
 20
-159.1991697096595
 30
0.0
 10
572.9223569648453
 20
-159.5443874313343
 30
0.0
 10
571.7996736048368
 20
-160.7787878703828
 30
0.0
 10
570.4681855034385
 20
-162.899250360548
 30
0.0
 10
569.433112931363
 20
-165.7870612968117
 30
0.0
 10
568.6510992872346
 20
-169.3636508690059
 30
0.0
 10
568.1827313120493
 20
-173.248758297861
 30
0.0
 10
567.9367131230548
 20
-177.1957594434206
 30
0.0
 10
567.9092252056797
 20
-179.8067155207534
 30
0.0
 10
567.8954814867265
 20
-181.1121707881227
 30
0.0
  0
LWPOLYLINE
  5
FA
330
1F
100
AcDbEntity
  8
0
  6
Continuous
 62
     7
370
    25
100
AcDbPolyline
 90
      111
 70
   128
 43
0.0
 10
493.6492694621
 20
-138.2507449174
 10
493.5316412595
 20
-133.5638851483
 10
493.1791403302
 20
-129.0281235736
 10
492.5929164591
 20
-124.6582549048
 10
491.7748817866
 20
-120.4685327451
 10
490.7277045718
 20
-116.4726230975
 10
489.454800489
 20
-112.6835597886
 10
487.9603214869
 20
-109.1137019554
 10
486.2491422452
 20
-105.7746937322
 10
484.3268442751
 20
-102.6774262696
 10
482.1996977128
 20
-99.8320022105
 10
479.8746408685
 20
-97.2477027367
 10
477.3592575942
 20
-94.9329572959
 10
474.6617525474
 20
-92.8953161066
 10
471.7909244288
 20
-91.1414255308
 10
468.7561372831
 20
-89.6770063951
 10
465.5672899551
 20
-88.5068353303
 10
462.234783802
 20
-87.6347291912
 10
458.7694887662
 20
-87.0635326067
 10
455.1827079198
 20
-86.7951087014
 10
451.4861405965
 20
-86.8303330182
 10
447.6918442306
 20
-87.1690906628
 10
443.812195028
 20
-87.8102766781
 10
439.8598475981
 20
-88.7517996487
 10
435.8476936768
 20
-89.9905885222
 10
431.7888200762
 20
-91.5226026269
 10
427.6964659983
 20
-93.3428448513
 10
423.5839798514
 20
-95.4453779434
 10
419.4647757108
 20
-97.8233438773
 10
415.352289564
 20
-100.4689862226
 10
411.259935486
 20
-103.3736754437
 10
407.2010618854
 20
-106.5279370481
 10
403.1889079641
 20
-109.9214824901
 10
399.2365605342
 20
-113.5432427298
 10
395.3569113317
 20
-117.3814043382
 10
391.5626149657
 20
-121.4234480297
 10
387.8660476424
 20
-125.6561894982
 10
384.279266796
 20
-130.0658224206
 10
380.8139717603
 20
-134.6379634909
 10
377.4814656072
 20
-139.3576993353
 10
374.2926182791
 20
-144.2096351564
 10
371.2578311334
 20
-149.1779449482
 10
368.3870030148
 20
-154.2464231167
 10
365.689497968
 20
-159.3985373397
 10
363.1741146937
 20
-164.6174824913
 10
360.8490578494
 20
-169.8862354574
 10
358.7219112872
 20
-175.1876106609
 10
356.799613317
 20
-180.5043161177
 10
355.0884340754
 20
-185.8190098397
 10
353.5939550732
 20
-191.1143564007
 10
352.3210509905
 20
-196.3730834809
 10
351.2738737756
 20
-201.5780382055
 10
350.4558391031
 20
-206.7122430942
 10
349.869615232
 20
-211.7589514376
 10
349.5171143028
 20
-216.7017019223
 10
349.3994861001
 20
-221.5243723233
 10
349.5171143028
 20
-226.2112320924
 10
349.869615232
 20
-230.7469936672
 10
350.4558391031
 20
-235.116862336
 10
351.2738737756
 20
-239.3065844956
 10
352.3210509905
 20
-243.3024941433
 10
353.5939550732
 20
-247.0915574522
 10
355.0884340754
 20
-250.6614152854
 10
356.799613317
 20
-254.0004235086
 10
358.7219112872
 20
-257.0976909712
 10
360.8490578494
 20
-259.9431150303
 10
363.1741146937
 20
-262.5274145041
 10
365.689497968
 20
-264.8421599449
 10
368.3870030148
 20
-266.8798011342
 10
371.2578311334
 20
-268.63369171
 10
374.2926182791
 20
-270.0981108457
 10
377.4814656072
 20
-271.2682819105
 10
380.8139717603
 20
-272.1403880496
 10
384.279266796
 20
-272.7115846341
 10
387.8660476424
 20
-272.9800085394
 10
391.5626149657
 20
-272.9447842226
 10
395.3569113317
 20
-272.606026578
 10
399.2365605342
 20
-271.9648405626
 10
403.1889079641
 20
-271.0233175921
 10
407.2010618854
 20
-269.7845287185
 10
411.259935486
 20
-268.2525146138
 10
415.352289564
 20
-266.4322723895
 10
419.4647757108
 20
-264.3297392974
 10
423.5839798514
 20
-261.9517733634
 10
427.6964659983
 20
-259.3061310182
 10
431.7888200762
 20
-256.4014417971
 10
435.8476936768
 20
-253.2471801927
 10
439.8598475981
 20
-249.8536347507
 10
443.812195028
 20
-246.231874511
 10
447.6918442306
 20
-242.3937129026
 10
451.4861405965
 20
-238.351669211
 10
455.1827079198
 20
-234.1189277426
 10
458.7694887662
 20
-229.7092948202
 10
462.234783802
 20
-225.1371537499
 10
465.5672899551
 20
-220.4174179055
 10
468.7561372831
 20
-215.5654820843
 10
471.7909244288
 20
-210.5971722926
 10
474.6617525474
 20
-205.5286941241
 10
477.3592575942
 20
-200.3765799011
 10
479.8746408685
 20
-195.1576347494
 10
482.1996977128
 20
-189.8888817834
 10
484.3268442751
 20
-184.5875065799
 10
486.2491422452
 20
-179.2708011231
 10
487.9603214869
 20
-173.9561074011
 10
489.454800489
 20
-168.6607608401
 10
490.7277045718
 20
-163.4020337599
 10
491.7748817866
 20
-158.1970790353
 10
492.5929164591
 20
-153.0628741466
 10
493.1791403302
 20
-148.0161658032
 10
493.5316412595
 20
-143.0734153185
 10
493.6492694621
 20
-138.2507449174
  0
LWPOLYLINE
  5
FB
330
1F
100
AcDbEntity
  8
0
  6
Continuous
 62
     7
370
    25
100
AcDbPolyline
 90
       15
 70
   128
 43
0.0
 10
719.9234394418
 20
-268.8760428091
 10
719.8058112392
 20
-264.18918304
 10
719.4533103099
 20
-259.6534214653
 10
718.8670864388
 20
-255.2835527964
 10
718.0490517663
 20
-251.0938306368
 10
717.0018745515
 20
-247.0979209891
 10
715.7289704687
 20
-243.3088576803
 10
714.2344914665
 20
-239.7389998471
 10
712.5233122249
 20
-236.3999916238
 10
710.6010142548
 20
-233.3027241613
 10
708.4738676925
 20
-230.4573001022
 10
706.1488108482
 20
-227.8730006283
 10
703.6334275739
 20
-225.5582551875
 10
700.9359225271
 20
-223.5206139982
 10
698.7944031252
 20
-222.1758725492
  0
LWPOLYLINE
  5
FC
330
1F
100
AcDbEntity
  8
0
  6
Continuous
 62
     7
370
    25
100
AcDbPolyline
 90
       43
 70
   128
 43
0.0
 10
596.8026923964
 20
-398.8498404749
 10
597.5320011131
 20
-399.2589896016
 10
600.5667882588
 20
-400.7234087373
 10
603.7556355869
 20
-401.8935798021
 10
607.08814174
 20
-402.7656859412
 10
610.5534367757
 20
-403.3368825257
 10
614.1402176221
 20
-403.605306431
 10
617.8367849454
 20
-403.5700821142
 10
621.6310813114
 20
-403.2313244696
 10
625.5107305139
 20
-402.5901384543
 10
629.4630779438
 20
-401.6486154837
 10
633.4752318651
 20
-400.4098266102
 10
637.5341054657
 20
-398.8778125055
 10
641.6264595437
 20
-397.0575702812
 10
645.7389456905
 20
-394.955037189
 10
649.8581498311
 20
-392.5770712551
 10
653.9706359779
 20
-389.9314289098
 10
658.0629900559
 20
-387.0267396888
 10
662.1218636565
 20
-383.8724780844
 10
666.1340175778
 20
-380.4789326423
 10
670.0863650077
 20
-376.8571724026
 10
673.9660142103
 20
-373.0190107942
 10
677.7603105762
 20
-368.9769671027
 10
681.4568778995
 20
-364.7442256342
 10
685.0436587459
 20
-360.3345927118
 10
688.5089537817
 20
-355.7624516415
 10
691.8414599348
 20
-351.0427157971
 10
695.0303072628
 20
-346.190779976
 10
698.0650944085
 20
-341.2224701842
 10
700.9359225271
 20
-336.1539920157
 10
703.6334275739
 20
-331.0018777928
 10
706.1488108482
 20
-325.7829326411
 10
708.4738676925
 20
-320.514179675
 10
710.6010142548
 20
-315.2128044716
 10
712.5233122249
 20
-309.8960990148
 10
714.2344914665
 20
-304.5814052927
 10
715.7289704687
 20
-299.2860587317
 10
717.0018745515
 20
-294.0273316515
 10
718.0490517663
 20
-288.8223769269
 10
718.8670864388
 20
-283.6881720382
 10
719.4533103099
 20
-278.6414636948
 10
719.8058112392
 20
-273.6987132101
 10
719.9234394418
 20
-268.8760428091
  0
LWPOLYLINE
  5
FD
330
1F
100
AcDbEntity
  8
0
  6
Continuous
 62
     7
370
    25
100
AcDbPolyline
 90
       98
 70
   128
 43
0.0
 10
478.092920276
 20
-147.2312341475
 10
477.9742862129
 20
-143.0713570584
 10
477.6188816162
 20
-139.0658999133
 10
477.0281971761
 20
-135.2316629913
 10
476.2047104285
 20
-131.5847284146
 10
475.151875363
 20
-128.1403926942
 10
473.8741079359
 20
-124.9131025711
 10
472.3767675476
 20
-121.9163944216
 10
470.6661345642
 20
-119.1628374812
 10
468.7493839749
 20
-116.6639811246
 10
466.6345552977
 20
-114.4303064237
 10
464.3305188591
 20
-112.4711821866
 10
461.8469385887
 20
-110.7948256611
 10
459.1942314852
 20
-109.408268069
 10
456.383523924
 20
-108.3173251148
 10
453.4266049895
 20
-107.5265725923
 10
450.3358770273
 20
-107.0393271925
 10
447.1243036246
 20
-106.8576325918
 10
443.8053552362
 20
-106.9822508806
 10
440.3929526852
 20
-107.4126593664
 10
436.9014087738
 20
-108.1470527665
 10
433.3453682505
 20
-109.1823507797
 10
429.7397463851
 20
-110.5142110064
 10
426.0996664087
 20
-112.137047162
 10
422.4403960818
 20
-114.0440525076
 10
418.7772836558
 20
-116.2272284
 10
415.1256934972
 20
-118.6774178409
 10
411.5009416442
 20
-121.3843438843
 10
407.9182315658
 20
-124.3366527416
 10
404.3925903931
 20
-127.5219614035
 10
400.9388058904
 20
-130.9269095784
 10
397.5713644302
 20
-134.5372157304
 10
394.3043902322
 20
-138.3377369808
 10
391.1515861217
 20
-142.3125326228
 10
388.1261760546
 20
-146.4449309821
 10
385.2408496523
 20
-150.7175993439
 10
382.5077089764
 20
-155.1126166521
 10
379.9382177687
 20
-159.6115486768
 10
377.5431533683
 20
-164.1955253336
 10
375.3325615076
 20
-168.8453198315
 10
373.3157141772
 20
-173.5414293162
 10
371.5010707357
 20
-178.2641566727
 10
369.8962424282
 20
-182.9936931411
 10
368.5079604624
 20
-187.7102014019
 10
367.3420477754
 20
-192.3938987803
 10
366.4033946101
 20
-197.0251402218
 10
365.6959380041
 20
-201.5845006904
 10
365.2226452764
 20
-206.0528566436
 10
364.9855015809
 20
-210.4114662439
 10
364.9855015809
 20
-214.6420479678
 10
365.2226452764
 20
-218.7268572854
 10
365.6959380041
 20
-222.6487610867
 10
366.4033946101
 20
-226.3913095443
 10
367.3420477754
 20
-229.9388051094
 10
368.5079604624
 20
-233.2763683526
 10
369.8962424282
 20
-236.3900003739
 10
371.5010707357
 20
-239.2666415185
 10
373.3157141772
 20
-241.8942261537
 10
375.3325615076
 20
-244.2617332765
 10
377.5431533683
 20
-246.3592327391
 10
379.9382177687
 20
-248.1779269
 10
382.5077089764
 20
-249.7101875237
 10
385.2408496523
 20
-250.9495877767
 10
388.1261760546
 20
-251.8909291836
 10
391.1515861217
 20
-252.5302634314
 10
394.3043902322
 20
-252.8649089301
 10
397.5713644302
 20
-252.8934620602
 10
400.9388058904
 20
-252.61580306
 10
404.3925903931
 20
-252.0330965277
 10
407.9182315658
 20
-251.147786537
 10
411.5009416442
 20
-249.9635863858
 10
415.1256934972
 20
-248.4854630211
 10
418.7772836558
 20
-246.7196162058
 10
422.4403960818
 20
-244.6734525152
 10
426.0996664087
 20
-242.3555542709
 10
429.7397463851
 20
-239.7756435437
 10
433.3453682505
 20
-236.9445413757
 10
436.9014087738
 20
-233.8741223934
 10
440.3929526852
 20
-230.577265001
 10
443.8053552362
 20
-227.067797364
 10
447.1243036246
 20
-223.3604394095
 10
450.3358770273
 20
-219.4707410851
 10
453.4266049895
 20
-215.4150171373
 10
456.383523924
 20
-211.2102786818
 10
459.1942314852
 20
-206.8741618529
 10
461.8469385887
 20
-202.4248538316
 10
464.3305188591
 20
-197.8810165619
 10
466.6345552977
 20
-193.2617084764
 10
468.7493839749
 20
-188.5863045586
 10
470.6661345642
 20
-183.8744150773
 10
472.3767675476
 20
-179.1458033344
 10
473.8741079359
 20
-174.4203027711
 10
475.151875363
 20
-169.7177337787
 10
476.2047104285
 20
-165.057820566
 10
477.0281971761
 20
-160.4601084284
 10
477.6188816162
 20
-155.9438817685
 10
477.9742862129
 20
-151.5280832102
 10
478.092920276
 20
-147.2312341475
  0
LWPOLYLINE
  5
FE
330
1F
100
AcDbEntity
  8
0
  6
Continuous
 62
     7
370
    25
100
AcDbPolyline
 90
       74
 70
   128
 43
0.0
 10
701.538663131
 20
-185.6024154031
 10
701.4208717787
 20
-182.3756964079
 10
701.0683698078
 20
-179.0368679107
 10
700.4837670195
 20
-175.6106494294
 10
699.6713916084
 20
-172.1224074871
 10
698.6372581177
 20
-168.5979678066
 10
697.3890229101
 20
-165.0634241063
 10
695.9359274822
 20
-161.544944911
 10
694.2887300443
 20
-158.0685798097
 10
692.4596258698
 20
-154.6600665934
 10
690.4621570061
 20
-151.3446407014
 10
688.3111120139
 20
-148.1468483869
 10
686.0224164777
 20
-145.0903649856
 10
683.6130150984
 20
-142.1978196311
 10
681.100746241
 20
-139.4906277173
 10
678.504209865
 20
-136.9888323458
 10
675.8426298174
 20
-134.7109559344
 10
673.1357115056
 20
-132.6738630829
 10
670.4034960057
 20
-130.8926357143
 10
667.6662116854
 20
-129.3804614126
 10
664.94412444
 20
-128.1485357875
 10
662.2573876513
 20
-127.2059795851
 10
659.6258929783
 20
-126.5597711619
 10
657.069123087
 20
-126.2146948188
 10
654.606007407
 20
-126.1733053806
 10
652.2547819852
 20
-126.43590928
 10
650.0328544718
 20
-127.0005622896
 10
647.9566752409
 20
-127.8630839162
 10
646.041615597
 20
-129.0170883513
 10
644.3018539718
 20
-130.45403175
 10
642.7502709516
 20
-132.1632754859
 10
641.3983539143
 20
-134.1321649166
 10
640.2561119806
 20
-136.3461230734
 10
639.3320019101
 20
-138.7887585849
 10
638.6328654906
 20
-141.4419870322
 10
638.1638788834
 20
-144.2861648404
 10
637.9285143012
 20
-147.3002347118
 10
637.9285143012
 20
-150.4618815278
 10
638.1638788834
 20
-153.7476975615
 10
638.6328654906
 20
-157.1333557805
 10
639.3320019101
 20
-160.5937899561
 10
640.2561119806
 20
-164.1033802441
 10
641.3983539143
 20
-167.6361428661
 10
642.7502709516
 20
-171.1659224836
 10
644.3018539718
 20
-174.6665858432
 10
646.041615597
 20
-178.1122152582
 10
647.9566752409
 20
-181.477300494
 10
650.0328544718
 20
-184.7369276367
 10
652.2547819852
 20
-187.8669635476
 10
654.606007407
 20
-190.8442345357
 10
657.069123087
 20
-193.6466979285
 10
659.6258929783
 20
-196.2536052673
 10
662.2573876513
 20
-198.6456559223
 10
664.94412444
 20
-200.8051399874
 10
667.6662116854
 20
-202.7160693981
 10
670.4034960057
 20
-204.3642963017
 10
673.1357115056
 20
-205.7376178027
 10
675.8426298174
 20
-206.8258663093
 10
678.504209865
 20
-207.6209848104
 10
681.100746241
 20
-208.1170865266
 10
683.6130150984
 20
-208.3104984944
 10
686.0224164777
 20
-208.1997887594
 10
688.3111120139
 20
-207.7857769776
 10
690.4621570061
 20
-207.0715283475
 10
692.4596258698
 20
-206.062330916
 10
694.2887300443
 20
-204.7656564278
 10
695.9359274822
 20
-203.1911050071
 10
697.3890229101
 20
-201.3503340818
 10
698.6372581177
 20
-199.2569720758
 10
699.6713916084
 20
-196.9265175089
 10
700.4837670195
 20
-194.3762242515
 10
701.0683698078
 20
-191.6249737825
 10
701.4208717787
 20
-188.6931353978
 10
701.538663131
 20
-185.6024154031
  0
LWPOLYLINE
  5
FF
330
1F
100
AcDbEntity
  8
0
  6
Continuous
 62
     7
370
    25
100
AcDbPolyline
 90
       81
 70
   128
 43
0.0
 10
708.6097309428
 20
-189.6844559623
 10
708.4898433607
 20
-186.0916683793
 10
708.1309197609
 20
-182.3826122705
 10
707.535173027
 20
-178.5801552002
 10
706.7062761356
 20
-174.7077405805
 10
705.6493395117
 20
-170.7892431354
 10
704.370879521
 20
-166.8488217046
 10
702.8787782946
 20
-162.9107702965
 10
701.1822351326
 20
-158.9993683077
 10
699.2917097878
 20
-155.1387308321
 10
697.2188579776
 20
-151.3526599835
 10
694.9764595227
 20
-147.6644981476
 10
692.5783395553
 20
-144.0969840687
 10
690.0392832825
 20
-140.6721126574
 10
687.3749448304
 20
-137.4109993847
 10
684.6017507316
 20
-134.3337500984
 10
681.7367986499
 20
-131.4593370638
 10
678.7977519676
 20
-128.8054819929
 10
675.8027308849
 20
-126.3885467848
 10
672.7702007025
 20
-124.2234326488
 10
669.7188579776
 20
-122.3234882334
 10
666.6675152527
 20
-120.7004273279
 10
663.6349850703
 20
-119.3642566423
 10
660.6399639875
 20
-118.3232141133
 10
657.7009173052
 20
-117.5837181144
 10
654.8359652236
 20
-117.1503278841
 10
652.0627711248
 20
-117.0257154174
 10
649.3984326727
 20
-117.2106489916
 10
646.8593763998
 20
-117.7039884298
 10
644.4612564324
 20
-118.5026921301
 10
642.2188579776
 20
-119.6018358188
 10
640.1460061674
 20
-120.9946429094
 10
638.2554808226
 20
-122.6725262832
 10
636.5589376606
 20
-124.6251412311
 10
635.0668364342
 20
-126.8404492327
 10
633.7883764435
 20
-129.3047921775
 10
632.7314398196
 20
-132.0029765717
 10
631.9025429282
 20
-134.9183672114
 10
631.3067961942
 20
-138.0329897437
 10
630.9478725945
 20
-141.3276414851
 10
630.8279850123
 20
-144.782009812
 10
630.9478725945
 20
-148.3747973949
 10
631.3067961942
 20
-152.0838535037
 10
631.9025429282
 20
-155.8863105741
 10
632.7314398196
 20
-159.7587251938
 10
633.7883764435
 20
-163.6772226389
 10
635.0668364342
 20
-167.6176440697
 10
636.5589376606
 20
-171.5556954777
 10
638.2554808226
 20
-175.4670974665
 10
640.1460061674
 20
-179.3277349422
 10
642.2188579776
 20
-183.1138057908
 10
644.4612564324
 20
-186.8019676266
 10
646.8593763998
 20
-190.3694817055
 10
649.3984326727
 20
-193.7943531169
 10
652.0627711248
 20
-197.0554663896
 10
654.8359652236
 20
-200.1327156758
 10
657.7009173052
 20
-203.0071287105
 10
660.6399639875
 20
-205.6609837814
 10
663.6349850703
 20
-208.0779189895
 10
666.6675152527
 20
-210.2430331255
 10
669.7188579776
 20
-212.1429775409
 10
672.7702007025
 20
-213.7660384464
 10
675.8027308849
 20
-215.102209132
 10
678.7977519676
 20
-216.1432516609
 10
681.7367986499
 20
-216.8827476599
 10
684.6017507316
 20
-217.3161378902
 10
687.3749448304
 20
-217.4407503569
 10
690.0392832825
 20
-217.2558167827
 10
692.5783395553
 20
-216.7624773445
 10
694.9764595227
 20
-215.9637736442
 10
697.2188579776
 20
-214.8646299555
 10
699.2917097878
 20
-213.4718228648
 10
701.1822351326
 20
-211.7939394911
 10
702.8787782946
 20
-209.8413245432
 10
704.370879521
 20
-207.6260165416
 10
705.6493395117
 20
-205.1616735968
 10
706.7062761356
 20
-202.4634892026
 10
707.535173027
 20
-199.5480985629
 10
708.1309197609
 20
-196.4334760305
 10
708.4898433607
 20
-193.1388242891
 10
708.6097309428
 20
-189.6844559623
  0
LWPOLYLINE
  5
100
330
1F
100
AcDbEntity
  8
0
  6
Continuous
 62
     7
370
    25
100
AcDbPolyline
 90
       16
 70
   128
 43
0.0
 10
434.1812320306
 20
-85.9848344533
 10
434.1372174999
 20
-85.5323844396
 10
433.7884153428
 20
-84.6501721451
 10
433.1083014252
 20
-83.8348853918
 10
432.1309794989
 20
-83.1274060619
 10
430.9054565662
 20
-82.5632101231
 10
429.4931854643
 20
-82.1705887157
 10
427.9649833633
 20
-81.9692295164
 10
426.3974806979
 20
-81.9692295164
 10
424.8692785969
 20
-82.1705887157
 10
423.457007495
 20
-82.5632101231
 10
422.2314845623
 20
-83.1274060619
 10
421.254162636
 20
-83.8348853918
 10
420.5740487184
 20
-84.6501721451
 10
420.2252465614
 20
-85.5323844396
 10
420.1812320306
 20
-85.9848344533
  0
ENDSEC
  0
SECTION
  2
OBJECTS
  0
DICTIONARY
  5
C
330
0
100
AcDbDictionary
281
     1
  3
ACAD_GROUP
350
D
  3
ACAD_LAYOUT
350
1A
  3
ACAD_MLINESTYLE
350
17
  3
ACAD_PLOTSETTINGS
350
19
  3
ACAD_PLOTSTYLENAME
350
E
  3
ACAD_SCALELIST
350
47
  3
DWGPROPS
350
101
  0
DICTIONARY
  5
D
102
{ACAD_REACTORS
330
C
102
}
330
C
100
AcDbDictionary
281
     1
  0
DICTIONARY
  5
1A
102
{ACAD_REACTORS
330
C
102
}
330
C
100
AcDbDictionary
281
     1
  3
Layout1
350
1E
  3
Layout2
350
26
  3
Model
350
22
  0
DICTIONARY
  5
17
102
{ACAD_REACTORS
330
C
102
}
330
C
100
AcDbDictionary
281
     1
  3
Standard
350
18
  0
DICTIONARY
  5
19
102
{ACAD_REACTORS
330
C
102
}
330
C
100
AcDbDictionary
281
     1
  0
ACDBDICTIONARYWDFLT
  5
E
102
{ACAD_REACTORS
330
C
102
}
330
C
100
AcDbDictionary
281
     1
  3
Normal
350
F
100
AcDbDictionaryWithDefault
340
F
  0
DICTIONARY
  5
47
102
{ACAD_REACTORS
330
C
102
}
330
C
100
AcDbDictionary
281
     1
  3
A0
350
48
  3
A1
350
49
  3
A2
350
4A
  3
A3
350
4B
  3
A4
350
4C
  3
A5
350
4D
  3
A6
350
4E
  3
A7
350
4F
  3
A8
350
50
  3
A9
350
51
  3
B0
350
52
  3
B1
350
53
  3
B2
350
54
  3
B3
350
55
  3
B4
350
56
  3
B5
350
57
  3
B6
350
58
  3
B7
350
59
  3
B8
350
5A
  3
B9
350
5B
  3
C0
350
5C
  3
C1
350
5D
  3
C2
350
5E
  3
C3
350
5F
  3
C4
350
60
  3
C5
350
61
  3
C6
350
62
  3
C7
350
63
  3
C8
350
64
  3
C9
350
65
  3
D0
350
66
  3
D1
350
67
  3
D2
350
68
  0
XRECORD
  5
101
102
{ACAD_REACTORS
330
C
102
}
330
C
100
AcDbXrecord
280
     1
  1
DWGPROPS COOKIE
  2

  3

  4

  6

  7

  8
b.kav
  9

300
=
301
=
302
=
303
=
304
=
305
=
306
=
307
=
308
=
309
=
 40
0.0
 41
2459741.481160845
 42
2459741.481161099
  1

 90
        0
  0
LAYOUT
  5
1E
102
{ACAD_REACTORS
330
1A
102
}
330
1A
100
AcDbPlotSettings
  1

  2
none_device
  4

  6

 40
0.0
 41
0.0
 42
0.0
 43
0.0
 44
0.0
 45
0.0
 46
0.0
 47
0.0
 48
0.0
 49
0.0
140
0.0
141
0.0
142
1.0
143
1.0
 70
   688
 72
     1
 73
     0
 74
     5
  7

 75
    16
147
1.0
148
0.0
149
0.0
100
AcDbLayout
  1
Layout1
 70
     1
 71
     1
 10
0.0
 20
0.0
 11
420.0
 21
297.0
 12
0.0
 22
0.0
 32
0.0
 14
1.0000000000E+20
 24
1.0000000000E+20
 34
1.0000000000E+20
 15
-1.0000000000E+20
 25
-1.0000000000E+20
 35
-1.0000000000E+20
146
0.0
 13
0.0
 23
0.0
 33
0.0
 16
1.0
 26
0.0
 36
0.0
 17
0.0
 27
1.0
 37
0.0
 76
     0
330
1B
  0
LAYOUT
  5
26
102
{ACAD_REACTORS
330
1A
102
}
330
1A
100
AcDbPlotSettings
  1

  2
none_device
  4

  6

 40
0.0
 41
0.0
 42
0.0
 43
0.0
 44
0.0
 45
0.0
 46
0.0
 47
0.0
 48
0.0
 49
0.0
140
0.0
141
0.0
142
1.0
143
1.0
 70
   688
 72
     1
 73
     0
 74
     5
  7

 75
    16
147
1.0
148
0.0
149
0.0
100
AcDbLayout
  1
Layout2
 70
     1
 71
     2
 10
0.0
 20
0.0
 11
0.0
 21
0.0
 12
0.0
 22
0.0
 32
0.0
 14
0.0
 24
0.0
 34
0.0
 15
0.0
 25
0.0
 35
0.0
146
0.0
 13
0.0
 23
0.0
 33
0.0
 16
1.0
 26
0.0
 36
0.0
 17
0.0
 27
1.0
 37
0.0
 76
     0
330
23
  0
LAYOUT
  5
22
102
{ACAD_REACTORS
330
1A
102
}
330
1A
100
AcDbPlotSettings
  1

  2
none_device
  4
Letter_(8.50_x_11.00_Inches)
  6

 40
6.35
 41
6.35
 42
6.35000508
 43
6.35000508
 44
215.9
 45
279.4
 46
0.0
 47
0.0
 48
0.0
 49
0.0
140
0.0
141
0.0
142
1.0
143
1.0
 70
  1712
 72
     1
 73
     0
 74
     0
  7

 75
     0
147
1.0
148
0.0
149
0.0
100
AcDbLayout
  1
Model
 70
     1
 71
     0
 10
0.0
 20
0.0
 11
279.4
 21
215.9
 12
0.0
 22
0.0
 32
0.0
 14
0.0
 24
0.0
 34
0.0
 15
279.4
 25
215.9
 35
0.0
146
0.0
 13
0.0
 23
0.0
 33
0.0
 16
1.0
 26
0.0
 36
0.0
 17
0.0
 27
1.0
 37
0.0
 76
     0
330
1F
331
29
  0
MLINESTYLE
  5
18
102
{ACAD_REACTORS
330
17
102
}
330
17
100
AcDbMlineStyle
  2
Standard
 70
     0
  3

 62
   256
 51
90.0
 52
90.0
 71
     2
 49
0.5
 62
   256
  6
BYLAYER
 49
-0.5
 62
   256
  6
BYLAYER
  0
ACDBPLACEHOLDER
  5
F
102
{ACAD_REACTORS
330
E
102
}
330
E
  0
SCALE
  5
48
102
{ACAD_REACTORS
330
47
102
}
330
47
100
AcDbScale
 70
     0
300
1:1
140
1.0
141
1.0
290
     1
  0
SCALE
  5
49
102
{ACAD_REACTORS
330
47
102
}
330
47
100
AcDbScale
 70
     0
300
1:2
140
1.0
141
2.0
290
     0
  0
SCALE
  5
4A
102
{ACAD_REACTORS
330
47
102
}
330
47
100
AcDbScale
 70
     0
300
1:4
140
1.0
141
4.0
290
     0
  0
SCALE
  5
4B
102
{ACAD_REACTORS
330
47
102
}
330
47
100
AcDbScale
 70
     0
300
1:5
140
1.0
141
5.0
290
     0
  0
SCALE
  5
4C
102
{ACAD_REACTORS
330
47
102
}
330
47
100
AcDbScale
 70
     0
300
1:8
140
1.0
141
8.0
290
     0
  0
SCALE
  5
4D
102
{ACAD_REACTORS
330
47
102
}
330
47
100
AcDbScale
 70
     0
300
1:10
140
1.0
141
10.0
290
     0
  0
SCALE
  5
4E
102
{ACAD_REACTORS
330
47
102
}
330
47
100
AcDbScale
 70
     0
300
1:16
140
1.0
141
16.0
290
     0
  0
SCALE
  5
4F
102
{ACAD_REACTORS
330
47
102
}
330
47
100
AcDbScale
 70
     0
300
1:20
140
1.0
141
20.0
290
     0
  0
SCALE
  5
50
102
{ACAD_REACTORS
330
47
102
}
330
47
100
AcDbScale
 70
     0
300
1:30
140
1.0
141
30.0
290
     0
  0
SCALE
  5
51
102
{ACAD_REACTORS
330
47
102
}
330
47
100
AcDbScale
 70
     0
300
1:40
140
1.0
141
40.0
290
     0
  0
SCALE
  5
52
102
{ACAD_REACTORS
330
47
102
}
330
47
100
AcDbScale
 70
     0
300
1:50
140
1.0
141
50.0
290
     0
  0
SCALE
  5
53
102
{ACAD_REACTORS
330
47
102
}
330
47
100
AcDbScale
 70
     0
300
1:100
140
1.0
141
100.0
290
     0
  0
SCALE
  5
54
102
{ACAD_REACTORS
330
47
102
}
330
47
100
AcDbScale
 70
     0
300
2:1
140
2.0
141
1.0
290
     0
  0
SCALE
  5
55
102
{ACAD_REACTORS
330
47
102
}
330
47
100
AcDbScale
 70
     0
300
4:1
140
4.0
141
1.0
290
     0
  0
SCALE
  5
56
102
{ACAD_REACTORS
330
47
102
}
330
47
100
AcDbScale
 70
     0
300
8:1
140
8.0
141
1.0
290
     0
  0
SCALE
  5
57
102
{ACAD_REACTORS
330
47
102
}
330
47
100
AcDbScale
 70
     0
300
10:1
140
10.0
141
1.0
290
     0
  0
SCALE
  5
58
102
{ACAD_REACTORS
330
47
102
}
330
47
100
AcDbScale
 70
     0
300
100:1
140
100.0
141
1.0
290
     0
  0
SCALE
  5
59
102
{ACAD_REACTORS
330
47
102
}
330
47
100
AcDbScale
 70
     0
300
1/128" = 1'-0"
140
0.0078125
141
12.0
290
     0
  0
SCALE
  5
5A
102
{ACAD_REACTORS
330
47
102
}
330
47
100
AcDbScale
 70
     0
300
1/64" = 1'-0"
140
0.015625
141
12.0
290
     0
  0
SCALE
  5
5B
102
{ACAD_REACTORS
330
47
102
}
330
47
100
AcDbScale
 70
     0
300
1/32" = 1'-0"
140
0.03125
141
12.0
290
     0
  0
SCALE
  5
5C
102
{ACAD_REACTORS
330
47
102
}
330
47
100
AcDbScale
 70
     0
300
1/16" = 1'-0"
140
0.0625
141
12.0
290
     0
  0
SCALE
  5
5D
102
{ACAD_REACTORS
330
47
102
}
330
47
100
AcDbScale
 70
     0
300
3/32" = 1'-0"
140
0.09375
141
12.0
290
     0
  0
SCALE
  5
5E
102
{ACAD_REACTORS
330
47
102
}
330
47
100
AcDbScale
 70
     0
300
1/8" = 1'-0"
140
0.125
141
12.0
290
     0
  0
SCALE
  5
5F
102
{ACAD_REACTORS
330
47
102
}
330
47
100
AcDbScale
 70
     0
300
3/16" = 1'-0"
140
0.1875
141
12.0
290
     0
  0
SCALE
  5
60
102
{ACAD_REACTORS
330
47
102
}
330
47
100
AcDbScale
 70
     0
300
1/4" = 1'-0"
140
0.25
141
12.0
290
     0
  0
SCALE
  5
61
102
{ACAD_REACTORS
330
47
102
}
330
47
100
AcDbScale
 70
     0
300
3/8" = 1'-0"
140
0.375
141
12.0
290
     0
  0
SCALE
  5
62
102
{ACAD_REACTORS
330
47
102
}
330
47
100
AcDbScale
 70
     0
300
1/2" = 1'-0"
140
0.5
141
12.0
290
     0
  0
SCALE
  5
63
102
{ACAD_REACTORS
330
47
102
}
330
47
100
AcDbScale
 70
     0
300
3/4" = 1'-0"
140
0.75
141
12.0
290
     0
  0
SCALE
  5
64
102
{ACAD_REACTORS
330
47
102
}
330
47
100
AcDbScale
 70
     0
300
1" = 1'-0"
140
1.0
141
12.0
290
     0
  0
SCALE
  5
65
102
{ACAD_REACTORS
330
47
102
}
330
47
100
AcDbScale
 70
     0
300
1-1/2" = 1'-0"
140
1.5
141
12.0
290
     0
  0
SCALE
  5
66
102
{ACAD_REACTORS
330
47
102
}
330
47
100
AcDbScale
 70
     0
300
3" = 1'-0"
140
3.0
141
12.0
290
     0
  0
SCALE
  5
67
102
{ACAD_REACTORS
330
47
102
}
330
47
100
AcDbScale
 70
     0
300
6" = 1'-0"
140
6.0
141
12.0
290
     0
  0
SCALE
  5
68
102
{ACAD_REACTORS
330
47
102
}
330
47
100
AcDbScale
 70
     0
300
1'-0" = 1'-0"
140
12.0
141
12.0
290
     0
  0
ENDSEC
  0
EOF
